sobujbangladesh_banner
Home
 
 
Sponsored Links
Poth Chola (Chords) by Artcell
Sponsored Links

Song: Poth Chola (Chords)
Artist: Artcell

Tune down your guitar half a step to E flat

|3-----5-----3-----2-----3---2---|x3
|--3-----3-----3-----3-----3-----|
|0---0-0---0-0---0-0---0-0-------|
|--------------------------------|
|--------------------------------|
|--------------------------------|
then,
|3-----5-----7-----5-----3---5---|x1
|--3-----3-----5-----3-----3-----|
|0---0-0---0-4---4-2---2-0-------|
|--------------------------------|
|--------------------------------|
|--------------------------------|
Play these two patterns one by one four times before the song begins:

verse-1
G C Bm C
Amaar path chola amaar pathey
G C Bm C
Jeno bela sheshey aakash kaar moohey


Pre-chorus
Em Bm Am
Aamar shopno aamar shathe
G C D G
Jeno shopne phire ashe shopno hoye

G C Bm
Khuje pae jeeboner teer
C
Jibon ke kono shopno bhebe


Chorus-
G
Aami kaar asha te
C D
Choli pathey pothey
G
Jeno kaar maya te
C D
Badha poreche jeebon je
G
Koto shukh kolpona
C D

Koto mitthey prolobhon
G
Koshther prothiti khon
C D G
Shonae taar aobhan

Continue figure 1 & 2

verse -2
play like verse-1

Amaar aloe alokito
Hote cheye adhare miliye
G
Aami aaj nei tobu
C
Koto shur othe beje
Am D
tomaar ei gaaner majhey
Ei poth geche mishey
Aamar bela sheshe
Am D
Shopno phire ashey
G C D Bm
Pre-thi-bir dur deshey
C D G
Jibon ke kono ek shopno bhebe


sorry, didn't try to figure it for want of time.


before bridge play the chorus one time by raising one step:
then the sequence would be like this:
A----
D-----E
A----
D-----E
A----
D-----E
A----
D-----E----D

That's it!
Bridge:


|-------------------------------------------------------|
|-------------------------------------------------------|
|-----------------7-----------------------9-------------|
|-----9----9----9---9------10----10----10---10----------|
|--10---10---10---------12----12----12------------------|
|-------------------------------------------------------|



|-------------------------------------------------------|
|-------------------------------------------------------|
|--------------------11-------------------------12------|
|-----12----12----12----12-------14----14----14----14---|
|--14----14----14-------------15----15----15------------|
|----------------------------------------------------|

|-----------9----9---9------10----10----10---10--|
|--10---10---10---------12----12----12--------|
|--------------------------------------------------------------9------7------5-----4-------2-----0-------|
|-----10------9------7-----5-------4-----2--------|
|--12----10---9---7-------5-----3------0-3-5-3---|
|---------------------------------------------------|

end

 
 
Sponsored Links
   
 
© 2011 SobujBangladesh.com. All Rights Reserved