sobujbangladesh_banner
Home
 
 
Sponsored Links
Opshori (Chords) by Artcell
Sponsored Links

Song: Opshori (Chords)
Artist: Artcell

Tune your guitar to= e a d g b e

[note: I just tabbed out the notes here, it's your job to get the timing through listening to the song)

Intro Plucking (also played with Distortion)

|---------|-------|--------|-------|-------------|
|---------|-------|--------|-------|-------------|
|-------0-|-----0-|-----0--|-------|-------------|
|-----4---|---4---|---4----|----4--|-------------|
|---2-----|-3-----|-5------|--3----|-------------|
|-0-------|-------|--------|-------|--3--5--3--2-|

Verse (4 times)

|-----------------|---------------------|
|-----------------|---------------------|
|-----------------|---------------------|
|-----------------|---------------------|
|---------------2-|-2--------------5--5-|
|-0-0-0-0--0--0---|-0--3-3-3-3--3--3--3-|

Fill 1:

|-------------|
|-------------|
|-------------|
|-------------|
|------5----2-|
|-3-3--3--3-0-|

Pre-chorus (4 times)

|-------------------------------------------|
|-------------------------------------------|
|-------------------------------------------|
|-5-------5---------5---7------7----------7-|
|-3--3-3-3--3-3-3-3-3---5--5-5-5--5-5-5-5-5-|
|-------------------------------------------|

Last time:

|---------------------------------------|
|---------------------------------------|
|---------------------------------------|
|-5------5----------5---7------7--5-4-4-|
|-3--3-3-3--3-3-3-3-3---5--5-5-5--3-2-2-|
|---------------------------------------|

Chorus (2 times)

|--------------------------------------------------------------------|
|--------------------------------------------------------------------|
|--------------------------------------------------------------------|
|----------5-5------7-7---5-4-4-----------5-5------7-7---------------|
|-2-2--3-3-3-3--5-5-5-5---3-2-2--2-2--3-3-3-3--5-5-5-5-------7--5--4-|
|-0-0----------------------------0-0--------------------3-3--5--3--2-|

After Chorus:

|----------------------------------------------|
|----------------------------------------------|
|----------------------------------------------|
|----------------------------------------------|
|-2-----5--------------2-2------5------------3-|
|-0-0-0-3--3-3--3-3-0--0-0-0-3--3-3--3-3--0--1-|


|----------------------------------------------|
|----------------------------------------------|
|----------------------------------------------|
|----------------------------------------------|
|-2-----5--------------2-2------5---------3--3-|
|-0-0-0-3--3-3--3-3-0--0-0-0-3--3-3--3-3--1--1-|


Verse (4 times)
Pre-chorus (4 times)
Chorus (2 times)

Then the after chorus part (2 times)

Then comes the clean part.

After the vocal sings, "tumi amar jonno ene chile shorgo......", the progressive part goes like:

|--------------------------------------------|
|--------------------------------------------|
|--------------------------------------------|
|-------4--5-5-5-------4-4-4----4------------|
|----2-------------3-5-------5----5--3--5--3-|
|-0------------------------------------------|


|-----------------------------------------|
|-----------------------------------------|
|-----------------------------------------|
|-------4--5-5-5-------5-5-5-5----4-------|
|----2------------3--5----------5----5--3-|
|-0---------------------------------------|


|--------------------------------------------|
|--------------------------------------------|
|--------------------------------------------|
|-------4--5-5-5-------4-4-4----4------------|
|----2-------------3-5-------5----5--3--5--3-|
|-0------------------------------------------|


|---------------------------------------------------|
|---------------------------------------------------|
|---------------------------------------------------|
|--4-------4----5-------5----7-------7----9-------9-|
|---------------------------------------------------|
|-2---2-2-2----3---3-3-3----5---5-5-5----7---7-7-7--|

 
 
Sponsored Links
   
 
© 2011 SobujBangladesh.com. All Rights Reserved